ISO-10303-21;
HEADER;
FILE_DESCRIPTION (( 'STEP AP203' ),
    '1' );
FILE_NAME ('MgF2-MIRQWP-12.7-4000-M.STEP',
    '2020-12-23T01:29:17',
    ( '' ),
    ( '' ),
    'SwSTEP 2.0',
    'SolidWorks 2020',
    '' );
FILE_SCHEMA (( 'CONFIG_CONTROL_DESIGN' ));
ENDSEC;

DATA;
#1 = DIRECTION ( 'NONE',  ( 0.000000000000000000, 0.000000000000000000, 1.000000000000000000 ) ) ;
#2 = AXIS2_PLACEMENT_3D ( 'NONE', #253, #21, #129 ) ;
#3 = EDGE_CURVE ( 'NONE', #242, #8, #244, .T. ) ;
#4 = DIRECTION ( 'NONE',  ( 0.000000000000000000, 0.000000000000000000, 1.000000000000000000 ) ) ;
#5 = CYLINDRICAL_SURFACE ( 'NONE', #133, 12.69999999999999929 ) ;
#6 = AXIS2_PLACEMENT_3D ( 'NONE', #146, #172, #14 ) ;
#7 = LINE ( 'NONE', #119, #34 ) ;
#8 = VERTEX_POINT ( 'NONE', #109 ) ;
#9 =( NAMED_UNIT ( * ) PLANE_ANGLE_UNIT ( ) SI_UNIT ( $, .RADIAN. ) );
#10 = ORIENTED_EDGE ( 'NONE', *, *, #15, .F. ) ;
#11 = CARTESIAN_POINT ( 'NONE',  ( 0.000000000000000000, 0.000000000000000000, 0.000000000000000000 ) ) ;
#12 = CLOSED_SHELL ( 'NONE', ( #217, #209, #120, #130, #41, #260, #56, #166, #327, #276 ) ) ;
#13 = DATE_AND_TIME ( #269, #324 ) ;
#14 = DIRECTION ( 'NONE',  ( 0.000000000000000000, 0.000000000000000000, 1.000000000000000000 ) ) ;
#15 = EDGE_CURVE ( 'NONE', #174, #177, #145, .T. ) ;
#16 = ORIENTED_EDGE ( 'NONE', *, *, #69, .T. ) ;
#17 = SHAPE_DEFINITION_REPRESENTATION ( #159, #143 ) ;
#18 = ORIENTED_EDGE ( 'NONE', *, *, #63, .T. ) ;
#19 = AXIS2_PLACEMENT_3D ( 'NONE', #266, #148, #48 ) ;
#20 = DATE_TIME_ROLE ( 'classification_date' ) ;
#21 = DIRECTION ( 'NONE',  ( 1.000000000000000000, 0.000000000000000000, 0.000000000000000000 ) ) ;
#22 = CARTESIAN_POINT ( 'NONE',  ( 3.000000000000000000, 0.000000000000000000, 0.000000000000000000 ) ) ;
#23 = CARTESIAN_POINT ( 'NONE',  ( -3.000000000000000000, 0.000000000000000000, 12.69999999999999929 ) ) ;
#24 = ORIENTED_EDGE ( 'NONE', *, *, #105, .T. ) ;
#25 = EDGE_CURVE ( 'NONE', #8, #242, #70, .T. ) ;
#26 = APPLICATION_CONTEXT ( 'configuration controlled 3d designs of mechanical parts and assemblies' ) ;
#27 = CALENDAR_DATE ( 2020, 23, 12 ) ;
#28 = CARTESIAN_POINT ( 'NONE',  ( -1.614212418857619014, 0.000000000000000000, 0.000000000000000000 ) ) ;
#29 = PERSON_AND_ORGANIZATION_ROLE ( 'creator' ) ;
#30 = FACE_OUTER_BOUND ( 'NONE', #151, .T. ) ;
#31 = APPROVAL_STATUS ( 'not_yet_approved' ) ;
#32 = CYLINDRICAL_SURFACE ( 'NONE', #271, 6.349999999999999645 ) ;
#33 = AXIS2_PLACEMENT_3D ( 'NONE', #335, #309, #79 ) ;
#34 = VECTOR ( 'NONE', #40, 1000.000000000000000 ) ;
#35 = PRODUCT_DEFINITION ( 'UNKNOWN', '', #152, #36 ) ;
#36 = DESIGN_CONTEXT ( 'detailed design', #26, 'design' ) ;
#37 = DIRECTION ( 'NONE',  ( -1.000000000000000000, 0.000000000000000000, -0.000000000000000000 ) ) ;
#38 = AXIS2_PLACEMENT_3D ( 'NONE', #165, #37, #61 ) ;
#39 = CC_DESIGN_APPROVAL ( #71, ( #152 ) ) ;
#40 = DIRECTION ( 'NONE',  ( -1.000000000000000000, -0.000000000000000000, -0.000000000000000000 ) ) ;
#41 = ADVANCED_FACE ( 'NONE', ( #208 ), #204, .F. ) ;
#42 = APPROVAL ( #275, 'UNSPECIFIED' ) ;
#43 = CARTESIAN_POINT ( 'NONE',  ( 3.000000000000000000, 12.69999999999999929, 0.000000000000000000 ) ) ;
#44 = EDGE_LOOP ( 'NONE', ( #331, #24, #249, #183 ) ) ;
#45 = EDGE_CURVE ( 'NONE', #83, #73, #251, .T. ) ;
#46 = ORIENTED_EDGE ( 'NONE', *, *, #105, .F. ) ;
#47 = CIRCLE ( 'NONE', #279, 12.69999999999999929 ) ;
#48 = DIRECTION ( 'NONE',  ( 0.000000000000000000, 0.000000000000000000, 1.000000000000000000 ) ) ;
#49 = ORIENTED_EDGE ( 'NONE', *, *, #118, .T. ) ;
#50 = CC_DESIGN_PERSON_AND_ORGANIZATION_ASSIGNMENT ( #248, #236, ( #152 ) ) ;
#51 = ORIENTED_EDGE ( 'NONE', *, *, #250, .T. ) ;
#52 = AXIS2_PLACEMENT_3D ( 'NONE', #237, #210, #1 ) ;
#53 = LOCAL_TIME ( 9, 29, 17.00000000000000000, #154 ) ;
#54 = ORIENTED_EDGE ( 'NONE', *, *, #63, .F. ) ;
#55 = CARTESIAN_POINT ( 'NONE',  ( -2.999999999999999556, 0.000000000000000000, 0.000000000000000000 ) ) ;
#56 = ADVANCED_FACE ( 'NONE', ( #304, #82 ), #226, .F. ) ;
#57 = ORIENTED_EDGE ( 'NONE', *, *, #300, .T. ) ;
#58 = CALENDAR_DATE ( 2020, 23, 12 ) ;
#59 = CYLINDRICAL_SURFACE ( 'NONE', #313, 6.349999999999999645 ) ;
#60 = PERSON_AND_ORGANIZATION ( #192, #138 ) ;
#61 = DIRECTION ( 'NONE',  ( -0.000000000000000000, 0.000000000000000000, 1.000000000000000000 ) ) ;
#62 = CARTESIAN_POINT ( 'NONE',  ( 3.000000000000000888, 7.776507174585692163E-16, -6.349999999999999645 ) ) ;
#63 = EDGE_CURVE ( 'NONE', #247, #282, #90, .T. ) ;
#64 = FACE_OUTER_BOUND ( 'NONE', #78, .T. ) ;
#65 = AXIS2_PLACEMENT_3D ( 'NONE', #22, #131, #205 ) ;
#66 = DIRECTION ( 'NONE',  ( -1.000000000000000000, -0.000000000000000000, -0.000000000000000000 ) ) ;
#67 = FACE_OUTER_BOUND ( 'NONE', #254, .T. ) ;
#68 = DIRECTION ( 'NONE',  ( 1.000000000000000000, 0.000000000000000000, 0.000000000000000000 ) ) ;
#69 = EDGE_CURVE ( 'NONE', #194, #270, #283, .T. ) ;
#70 = CIRCLE ( 'NONE', #65, 12.69999999999999929 ) ;
#71 = APPROVAL ( #31, 'UNSPECIFIED' ) ;
#72 = APPLICATION_PROTOCOL_DEFINITION ( 'international standard', 'config_control_design', 1994, #26 ) ;
#73 = VERTEX_POINT ( 'NONE', #229 ) ;
#74 =( LENGTH_UNIT ( ) NAMED_UNIT ( * ) SI_UNIT ( .MILLI., .METRE. ) );
#75 = ORIENTED_EDGE ( 'NONE', *, *, #195, .T. ) ;
#76 = CIRCLE ( 'NONE', #19, 6.349999999999999645 ) ;
#77 = COORDINATED_UNIVERSAL_TIME_OFFSET ( 8, 0, .AHEAD. ) ;
#78 = EDGE_LOOP ( 'NONE', ( #196, #125, #104, #224 ) ) ;
#79 = DIRECTION ( 'NONE',  ( 0.000000000000000000, 0.000000000000000000, 1.000000000000000000 ) ) ;
#80 = VERTEX_POINT ( 'NONE', #303 ) ;
#81 = AXIS2_PLACEMENT_3D ( 'NONE', #55, #160, #252 ) ;
#82 = FACE_OUTER_BOUND ( 'NONE', #295, .T. ) ;
#83 = VERTEX_POINT ( 'NONE', #23 ) ;
#84 = ORIENTED_EDGE ( 'NONE', *, *, #140, .T. ) ;
#85 = DIRECTION ( 'NONE',  ( 0.000000000000000000, 0.000000000000000000, 1.000000000000000000 ) ) ;
#86 = PERSON_AND_ORGANIZATION_ROLE ( 'design_supplier' ) ;
#87 = DIRECTION ( 'NONE',  ( -1.000000000000000000, -0.000000000000000000, -0.000000000000000000 ) ) ;
#88 = LINE ( 'NONE', #265, #144 ) ;
#89 = DIRECTION ( 'NONE',  ( -1.000000000000000000, -0.000000000000000000, -0.000000000000000000 ) ) ;
#90 = CIRCLE ( 'NONE', #81, 6.349999999999999645 ) ;
#91 = CARTESIAN_POINT ( 'NONE',  ( -2.999999999999999556, 0.000000000000000000, 0.000000000000000000 ) ) ;
#92 = CARTESIAN_POINT ( 'NONE',  ( 1.500000000000000888, 0.000000000000000000, 6.349999999999999645 ) ) ;
#93 = CC_DESIGN_PERSON_AND_ORGANIZATION_ASSIGNMENT ( #103, #29, ( #35 ) ) ;
#94 = ORIENTED_EDGE ( 'NONE', *, *, #195, .F. ) ;
#95 = CIRCLE ( 'NONE', #186, 6.349999999999999645 ) ;
#96 = CC_DESIGN_PERSON_AND_ORGANIZATION_ASSIGNMENT ( #294, #272, ( #314 ) ) ;
#97 = ORIENTED_EDGE ( 'NONE', *, *, #45, .T. ) ;
#98 = CARTESIAN_POINT ( 'NONE',  ( -1.500000000000000444, 0.000000000000000000, 0.000000000000000000 ) ) ;
#99 = EDGE_LOOP ( 'NONE', ( #323, #225 ) ) ;
#100 =( NAMED_UNIT ( * ) SI_UNIT ( $, .STERADIAN. ) SOLID_ANGLE_UNIT ( ) );
#101 = ORIENTED_EDGE ( 'NONE', *, *, #291, .T. ) ;
#102 = CC_DESIGN_APPROVAL ( #42, ( #280 ) ) ;
#103 = PERSON_AND_ORGANIZATION ( #192, #138 ) ;
#104 = ORIENTED_EDGE ( 'NONE', *, *, #45, .F. ) ;
#105 = EDGE_CURVE ( 'NONE', #177, #80, #132, .T. ) ;
#106 = DIRECTION ( 'NONE',  ( 0.000000000000000000, 0.000000000000000000, 1.000000000000000000 ) ) ;
#107 = AXIS2_PLACEMENT_3D ( 'NONE', #182, #277, #281 ) ;
#108 = AXIS2_PLACEMENT_3D ( 'NONE', #43, #122, #241 ) ;
#109 = CARTESIAN_POINT ( 'NONE',  ( 3.000000000000000000, 1.555301434917138433E-15, -12.69999999999999929 ) ) ;
#110 = CALENDAR_DATE ( 2020, 23, 12 ) ;
#111 = DIRECTION ( 'NONE',  ( -1.000000000000000000, -0.000000000000000000, -0.000000000000000000 ) ) ;
#112 = DIRECTION ( 'NONE',  ( -1.000000000000000000, -0.000000000000000000, -0.000000000000000000 ) ) ;
#113 = DIRECTION ( 'NONE',  ( -1.000000000000000000, -0.000000000000000000, -0.000000000000000000 ) ) ;
#114 = DIRECTION ( 'NONE',  ( -1.000000000000000000, -0.000000000000000000, -0.000000000000000000 ) ) ;
#115 = CARTESIAN_POINT ( 'NONE',  ( 3.000000000000000888, 0.000000000000000000, 0.000000000000000000 ) ) ;
#116 = AXIS2_PLACEMENT_3D ( 'NONE', #163, #111, #285 ) ;
#117 = LOCAL_TIME ( 9, 29, 17.00000000000000000, #77 ) ;
#118 = EDGE_CURVE ( 'NONE', #194, #247, #170, .T. ) ;
#119 = CARTESIAN_POINT ( 'NONE',  ( -1.614212418857619014, 0.000000000000000000, 6.349999999999999645 ) ) ;
#120 = ADVANCED_FACE ( 'NONE', ( #212 ), #189, .F. ) ;
#121 = APPLICATION_CONTEXT ( 'configuration controlled 3d designs of mechanical parts and assemblies' ) ;
#122 = DIRECTION ( 'NONE',  ( -1.000000000000000000, 0.000000000000000000, -0.000000000000000000 ) ) ;
#123 = EDGE_LOOP ( 'NONE', ( #240, #268 ) ) ;
#124 = FACE_OUTER_BOUND ( 'NONE', #155, .T. ) ;
#125 = ORIENTED_EDGE ( 'NONE', *, *, #211, .T. ) ;
#126 = DIRECTION ( 'NONE',  ( 0.000000000000000000, 0.000000000000000000, 1.000000000000000000 ) ) ;
#127 = CIRCLE ( 'NONE', #6, 6.349999999999999645 ) ;
#128 = COORDINATED_UNIVERSAL_TIME_OFFSET ( 8, 0, .AHEAD. ) ;
#129 = DIRECTION ( 'NONE',  ( 0.000000000000000000, 0.000000000000000000, -1.000000000000000000 ) ) ;
#130 = ADVANCED_FACE ( 'NONE', ( #137 ), #317, .F. ) ;
#131 = DIRECTION ( 'NONE',  ( -1.000000000000000000, -0.000000000000000000, -0.000000000000000000 ) ) ;
#132 = LINE ( 'NONE', #334, #262 ) ;
#133 = AXIS2_PLACEMENT_3D ( 'NONE', #169, #66, #264 ) ;
#134 = ORIENTED_EDGE ( 'NONE', *, *, #69, .F. ) ;
#135 = DATE_AND_TIME ( #27, #53 ) ;
#136 = CARTESIAN_POINT ( 'NONE',  ( -1.614212418857619014, 0.000000000000000000, 0.000000000000000000 ) ) ;
#137 = FACE_OUTER_BOUND ( 'NONE', #123, .T. ) ;
#138 = ORGANIZATION ( 'UNSPECIFIED', 'UNSPECIFIED', '' ) ;
#139 = DIRECTION ( 'NONE',  ( 0.000000000000000000, 0.000000000000000000, 1.000000000000000000 ) ) ;
#140 = EDGE_CURVE ( 'NONE', #242, #83, #321, .T. ) ;
#141 = CARTESIAN_POINT ( 'NONE',  ( -1.614212418857619014, 7.776507174585692163E-16, -6.349999999999999645 ) ) ;
#142 = CARTESIAN_POINT ( 'NONE',  ( -1.614212418857619014, 0.000000000000000000, 12.69999999999999929 ) ) ;
#143 = ADVANCED_BREP_SHAPE_REPRESENTATION ( 'MgF2-MIRQWP-12.7-4000-M', ( #307, #299 ), #267 ) ;
#144 = VECTOR ( 'NONE', #290, 1000.000000000000000 ) ;
#145 = CIRCLE ( 'NONE', #215, 6.349999999999999645 ) ;
#146 = CARTESIAN_POINT ( 'NONE',  ( 1.500000000000000888, 0.000000000000000000, 0.000000000000000000 ) ) ;
#147 = ORIENTED_EDGE ( 'NONE', *, *, #25, .T. ) ;
#148 = DIRECTION ( 'NONE',  ( -1.000000000000000000, -0.000000000000000000, -0.000000000000000000 ) ) ;
#149 = APPROVAL_ROLE ( '' ) ;
#150 = PRODUCT_RELATED_PRODUCT_CATEGORY ( 'detail', '', ( #314 ) ) ;
#151 = EDGE_LOOP ( 'NONE', ( #274, #147, #84, #94 ) ) ;
#152 = PRODUCT_DEFINITION_FORMATION_WITH_SPECIFIED_SOURCE ( 'ANY', '', #314, .NOT_KNOWN. ) ;
#153 = PERSON_AND_ORGANIZATION ( #192, #138 ) ;
#154 = COORDINATED_UNIVERSAL_TIME_OFFSET ( 8, 0, .AHEAD. ) ;
#155 = EDGE_LOOP ( 'NONE', ( #273, #199 ) ) ;
#156 = CARTESIAN_POINT ( 'NONE',  ( -1.614212418857619014, 0.000000000000000000, 0.000000000000000000 ) ) ;
#157 = CARTESIAN_POINT ( 'NONE',  ( 3.000000000000000000, 0.000000000000000000, 0.000000000000000000 ) ) ;
#158 = EDGE_CURVE ( 'NONE', #270, #282, #88, .T. ) ;
#159 = PRODUCT_DEFINITION_SHAPE ( 'NONE', 'NONE',  #35 ) ;
#160 = DIRECTION ( 'NONE',  ( -1.000000000000000000, -0.000000000000000000, -0.000000000000000000 ) ) ;
#161 = DIRECTION ( 'NONE',  ( -1.000000000000000000, -0.000000000000000000, -0.000000000000000000 ) ) ;
#162 = APPROVAL_ROLE ( '' ) ;
#163 = CARTESIAN_POINT ( 'NONE',  ( -1.614212418857619014, 0.000000000000000000, 0.000000000000000000 ) ) ;
#164 = DATE_AND_TIME ( #58, #117 ) ;
#165 = CARTESIAN_POINT ( 'NONE',  ( 1.500000000000000444, 6.349999999999999645, 0.000000000000000000 ) ) ;
#166 = ADVANCED_FACE ( 'NONE', ( #30 ), #214, .T. ) ;
#167 = APPROVAL_DATE_TIME ( #164, #71 ) ;
#168 = CARTESIAN_POINT ( 'NONE',  ( -3.000000000000000000, 0.000000000000000000, 0.000000000000000000 ) ) ;
#169 = CARTESIAN_POINT ( 'NONE',  ( -1.614212418857619014, 0.000000000000000000, 0.000000000000000000 ) ) ;
#170 = LINE ( 'NONE', #141, #320 ) ;
#171 = AXIS2_PLACEMENT_3D ( 'NONE', #292, #328, #322 ) ;
#172 = DIRECTION ( 'NONE',  ( -1.000000000000000000, -0.000000000000000000, -0.000000000000000000 ) ) ;
#173 = EDGE_CURVE ( 'NONE', #177, #174, #95, .T. ) ;
#174 = VERTEX_POINT ( 'NONE', #261 ) ;
#175 = UNCERTAINTY_MEASURE_WITH_UNIT (LENGTH_MEASURE( 1.000000000000000082E-05 ), #74, 'distance_accuracy_value', 'NONE');
#176 = APPROVAL_STATUS ( 'not_yet_approved' ) ;
#177 = VERTEX_POINT ( 'NONE', #62 ) ;
#178 = DIRECTION ( 'NONE',  ( 1.000000000000000000, 0.000000000000000000, 0.000000000000000000 ) ) ;
#179 = DIRECTION ( 'NONE',  ( 0.000000000000000000, 0.000000000000000000, 1.000000000000000000 ) ) ;
#180 = AXIS2_PLACEMENT_3D ( 'NONE', #91, #89, #312 ) ;
#181 = ORIENTED_EDGE ( 'NONE', *, *, #158, .F. ) ;
#182 = CARTESIAN_POINT ( 'NONE',  ( -3.000000000000000000, 6.349999999999999645, 0.000000000000000000 ) ) ;
#183 = ORIENTED_EDGE ( 'NONE', *, *, #291, .F. ) ;
#184 = APPROVAL_PERSON_ORGANIZATION ( #60, #71, #162 ) ;
#185 = DIRECTION ( 'NONE',  ( -1.000000000000000000, -0.000000000000000000, -0.000000000000000000 ) ) ;
#186 = AXIS2_PLACEMENT_3D ( 'NONE', #115, #112, #4 ) ;
#187 = CARTESIAN_POINT ( 'NONE',  ( -1.500000000000000444, 0.000000000000000000, 6.349999999999999645 ) ) ;
#188 = CALENDAR_DATE ( 2020, 23, 12 ) ;
#189 = CYLINDRICAL_SURFACE ( 'NONE', #116, 6.349999999999999645 ) ;
#190 = CARTESIAN_POINT ( 'NONE',  ( -1.614212418857619014, 1.555301434917138433E-15, -12.69999999999999929 ) ) ;
#191 = DIRECTION ( 'NONE',  ( -1.000000000000000000, -0.000000000000000000, -0.000000000000000000 ) ) ;
#192 = PERSON ( 'UNSPECIFIED', 'UNSPECIFIED', 'UNSPECIFIED', ('UNSPECIFIED'), ('UNSPECIFIED'), ('UNSPECIFIED') ) ;
#193 = FACE_OUTER_BOUND ( 'NONE', #326, .T. ) ;
#194 = VERTEX_POINT ( 'NONE', #258 ) ;
#195 = EDGE_CURVE ( 'NONE', #73, #83, #47, .T. ) ;
#196 = ORIENTED_EDGE ( 'NONE', *, *, #3, .T. ) ;
#197 = COORDINATED_UNIVERSAL_TIME_OFFSET ( 8, 0, .AHEAD. ) ;
#198 = CARTESIAN_POINT ( 'NONE',  ( -2.999999999999999556, 0.000000000000000000, 6.349999999999999645 ) ) ;
#199 = ORIENTED_EDGE ( 'NONE', *, *, #25, .F. ) ;
#200 = ORIENTED_EDGE ( 'NONE', *, *, #250, .F. ) ;
#201 = DATE_TIME_ROLE ( 'creation_date' ) ;
#202 = EDGE_LOOP ( 'NONE', ( #200, #54 ) ) ;
#203 = PERSON_AND_ORGANIZATION ( #192, #138 ) ;
#204 = CYLINDRICAL_SURFACE ( 'NONE', #219, 6.349999999999999645 ) ;
#205 = DIRECTION ( 'NONE',  ( 0.000000000000000000, 0.000000000000000000, 1.000000000000000000 ) ) ;
#206 = AXIS2_PLACEMENT_3D ( 'NONE', #157, #161, #231 ) ;
#207 = CC_DESIGN_DATE_AND_TIME_ASSIGNMENT ( #135, #20, ( #280 ) ) ;
#208 = FACE_OUTER_BOUND ( 'NONE', #310, .T. ) ;
#209 = ADVANCED_FACE ( 'NONE', ( #216 ), #32, .F. ) ;
#210 = DIRECTION ( 'NONE',  ( -1.000000000000000000, -0.000000000000000000, -0.000000000000000000 ) ) ;
#211 = EDGE_CURVE ( 'NONE', #8, #73, #318, .T. ) ;
#212 = FACE_OUTER_BOUND ( 'NONE', #44, .T. ) ;
#213 = DIRECTION ( 'NONE',  ( 0.000000000000000000, 0.000000000000000000, 1.000000000000000000 ) ) ;
#214 = CYLINDRICAL_SURFACE ( 'NONE', #52, 12.69999999999999929 ) ;
#215 = AXIS2_PLACEMENT_3D ( 'NONE', #230, #185, #126 ) ;
#216 = FACE_OUTER_BOUND ( 'NONE', #222, .T. ) ;
#217 = ADVANCED_FACE ( 'NONE', ( #64 ), #5, .T. ) ;
#218 = ORIENTED_EDGE ( 'NONE', *, *, #297, .T. ) ;
#219 = AXIS2_PLACEMENT_3D ( 'NONE', #156, #332, #106 ) ;
#220 = APPLICATION_PROTOCOL_DEFINITION ( 'international standard', 'config_control_design', 1994, #121 ) ;
#221 = APPROVAL_PERSON_ORGANIZATION ( #203, #42, #228 ) ;
#222 = EDGE_LOOP ( 'NONE', ( #218, #49, #18, #181 ) ) ;
#223 = PLANE ( 'NONE',  #171 ) ;
#224 = ORIENTED_EDGE ( 'NONE', *, *, #140, .F. ) ;
#225 = ORIENTED_EDGE ( 'NONE', *, *, #173, .T. ) ;
#226 = PLANE ( 'NONE',  #107 ) ;
#227 = LOCAL_TIME ( 9, 29, 17.00000000000000000, #128 ) ;
#228 = APPROVAL_ROLE ( '' ) ;
#229 = CARTESIAN_POINT ( 'NONE',  ( -3.000000000000000000, 1.555301434917138433E-15, -12.69999999999999929 ) ) ;
#230 = CARTESIAN_POINT ( 'NONE',  ( 3.000000000000000888, 0.000000000000000000, 0.000000000000000000 ) ) ;
#231 = DIRECTION ( 'NONE',  ( 0.000000000000000000, 0.000000000000000000, 1.000000000000000000 ) ) ;
#232 = VECTOR ( 'NONE', #286, 1000.000000000000000 ) ;
#233 = ORIENTED_EDGE ( 'NONE', *, *, #118, .F. ) ;
#234 = PERSON_AND_ORGANIZATION_ROLE ( 'classification_officer' ) ;
#235 = DIRECTION ( 'NONE',  ( -1.000000000000000000, -0.000000000000000000, -0.000000000000000000 ) ) ;
#236 = PERSON_AND_ORGANIZATION_ROLE ( 'creator' ) ;
#237 = CARTESIAN_POINT ( 'NONE',  ( -1.614212418857619014, 0.000000000000000000, 0.000000000000000000 ) ) ;
#238 = CARTESIAN_POINT ( 'NONE',  ( -2.999999999999999556, 7.776507174585692163E-16, -6.349999999999999645 ) ) ;
#239 = DIRECTION ( 'NONE',  ( -1.000000000000000000, -0.000000000000000000, -0.000000000000000000 ) ) ;
#240 = ORIENTED_EDGE ( 'NONE', *, *, #300, .F. ) ;
#241 = DIRECTION ( 'NONE',  ( -0.000000000000000000, 0.000000000000000000, 1.000000000000000000 ) ) ;
#242 = VERTEX_POINT ( 'NONE', #319 ) ;
#243 = MECHANICAL_CONTEXT ( 'NONE', #121, 'mechanical' ) ;
#244 = CIRCLE ( 'NONE', #206, 12.69999999999999929 ) ;
#245 = CC_DESIGN_PERSON_AND_ORGANIZATION_ASSIGNMENT ( #298, #86, ( #152 ) ) ;
#246 = DIRECTION ( 'NONE',  ( 0.000000000000000000, 0.000000000000000000, -1.000000000000000000 ) ) ;
#247 = VERTEX_POINT ( 'NONE', #238 ) ;
#248 = PERSON_AND_ORGANIZATION ( #192, #138 ) ;
#249 = ORIENTED_EDGE ( 'NONE', *, *, #288, .T. ) ;
#250 = EDGE_CURVE ( 'NONE', #282, #247, #255, .T. ) ;
#251 = CIRCLE ( 'NONE', #33, 12.69999999999999929 ) ;
#252 = DIRECTION ( 'NONE',  ( 0.000000000000000000, 0.000000000000000000, 1.000000000000000000 ) ) ;
#253 = CARTESIAN_POINT ( 'NONE',  ( -1.500000000000000444, 0.000000000000000000, 0.000000000000000000 ) ) ;
#254 = EDGE_LOOP ( 'NONE', ( #302, #134 ) ) ;
#255 = CIRCLE ( 'NONE', #180, 6.349999999999999645 ) ;
#256 = LOCAL_TIME ( 9, 29, 17.00000000000000000, #301 ) ;
#257 = PERSON_AND_ORGANIZATION ( #192, #138 ) ;
#258 = CARTESIAN_POINT ( 'NONE',  ( -1.500000000000000444, 7.776507174585692163E-16, -6.349999999999999645 ) ) ;
#259 = DATE_AND_TIME ( #188, #256 ) ;
#260 = ADVANCED_FACE ( 'NONE', ( #193 ), #59, .F. ) ;
#261 = CARTESIAN_POINT ( 'NONE',  ( 3.000000000000000888, 0.000000000000000000, 6.349999999999999645 ) ) ;
#262 = VECTOR ( 'NONE', #191, 1000.000000000000000 ) ;
#263 = CC_DESIGN_PERSON_AND_ORGANIZATION_ASSIGNMENT ( #257, #234, ( #280 ) ) ;
#264 = DIRECTION ( 'NONE',  ( 0.000000000000000000, 0.000000000000000000, 1.000000000000000000 ) ) ;
#265 = CARTESIAN_POINT ( 'NONE',  ( -1.614212418857619014, 0.000000000000000000, 6.349999999999999645 ) ) ;
#266 = CARTESIAN_POINT ( 'NONE',  ( 1.500000000000000888, 0.000000000000000000, 0.000000000000000000 ) ) ;
#267 =( GEOMETRIC_REPRESENTATION_CONTEXT ( 3 ) GLOBAL_UNCERTAINTY_ASSIGNED_CONTEXT ( ( #175 ) ) GLOBAL_UNIT_ASSIGNED_CONTEXT ( ( #74, #9, #100 ) ) REPRESENTATION_CONTEXT ( 'NONE', 'WORKASPACE' ) );
#268 = ORIENTED_EDGE ( 'NONE', *, *, #288, .F. ) ;
#269 = CALENDAR_DATE ( 2020, 23, 12 ) ;
#270 = VERTEX_POINT ( 'NONE', #187 ) ;
#271 = AXIS2_PLACEMENT_3D ( 'NONE', #28, #113, #213 ) ;
#272 = PERSON_AND_ORGANIZATION_ROLE ( 'design_owner' ) ;
#273 = ORIENTED_EDGE ( 'NONE', *, *, #3, .F. ) ;
#274 = ORIENTED_EDGE ( 'NONE', *, *, #211, .F. ) ;
#275 = APPROVAL_STATUS ( 'not_yet_approved' ) ;
#276 = ADVANCED_FACE ( 'NONE', ( #67 ), #223, .F. ) ;
#277 = DIRECTION ( 'NONE',  ( 1.000000000000000000, 0.000000000000000000, 0.000000000000000000 ) ) ;
#278 = SECURITY_CLASSIFICATION_LEVEL ( 'unclassified' ) ;
#279 = AXIS2_PLACEMENT_3D ( 'NONE', #168, #239, #139 ) ;
#280 = SECURITY_CLASSIFICATION ( '', '', #278 ) ;
#281 = DIRECTION ( 'NONE',  ( 0.000000000000000000, 0.000000000000000000, -1.000000000000000000 ) ) ;
#282 = VERTEX_POINT ( 'NONE', #198 ) ;
#283 = CIRCLE ( 'NONE', #2, 6.349999999999999645 ) ;
#284 = APPROVAL_DATE_TIME ( #13, #306 ) ;
#285 = DIRECTION ( 'NONE',  ( 0.000000000000000000, 0.000000000000000000, 1.000000000000000000 ) ) ;
#286 = DIRECTION ( 'NONE',  ( -1.000000000000000000, -0.000000000000000000, -0.000000000000000000 ) ) ;
#287 = VECTOR ( 'NONE', #114, 1000.000000000000000 ) ;
#288 = EDGE_CURVE ( 'NONE', #80, #293, #76, .T. ) ;
#289 = CC_DESIGN_SECURITY_CLASSIFICATION ( #280, ( #152 ) ) ;
#290 = DIRECTION ( 'NONE',  ( -1.000000000000000000, -0.000000000000000000, -0.000000000000000000 ) ) ;
#291 = EDGE_CURVE ( 'NONE', #174, #293, #7, .T. ) ;
#292 = CARTESIAN_POINT ( 'NONE',  ( -1.500000000000000444, 6.349999999999999645, 0.000000000000000000 ) ) ;
#293 = VERTEX_POINT ( 'NONE', #92 ) ;
#294 = PERSON_AND_ORGANIZATION ( #192, #138 ) ;
#295 = EDGE_LOOP ( 'NONE', ( #97, #75 ) ) ;
#296 = FACE_BOUND ( 'NONE', #99, .T. ) ;
#297 = EDGE_CURVE ( 'NONE', #270, #194, #329, .T. ) ;
#298 = PERSON_AND_ORGANIZATION ( #192, #138 ) ;
#299 = AXIS2_PLACEMENT_3D ( 'NONE', #11, #179, #68 ) ;
#300 = EDGE_CURVE ( 'NONE', #293, #80, #127, .T. ) ;
#301 = COORDINATED_UNIVERSAL_TIME_OFFSET ( 8, 0, .AHEAD. ) ;
#302 = ORIENTED_EDGE ( 'NONE', *, *, #297, .F. ) ;
#303 = CARTESIAN_POINT ( 'NONE',  ( 1.500000000000000888, 7.776507174585692163E-16, -6.349999999999999645 ) ) ;
#304 = FACE_BOUND ( 'NONE', #202, .T. ) ;
#305 = AXIS2_PLACEMENT_3D ( 'NONE', #98, #178, #246 ) ;
#306 = APPROVAL ( #176, 'UNSPECIFIED' ) ;
#307 = MANIFOLD_SOLID_BREP ( 'Ðý×', #12 ) ;
#308 = CC_DESIGN_DATE_AND_TIME_ASSIGNMENT ( #259, #201, ( #35 ) ) ;
#309 = DIRECTION ( 'NONE',  ( -1.000000000000000000, -0.000000000000000000, -0.000000000000000000 ) ) ;
#310 = EDGE_LOOP ( 'NONE', ( #46, #10, #101, #57 ) ) ;
#311 = APPROVAL_DATE_TIME ( #316, #42 ) ;
#312 = DIRECTION ( 'NONE',  ( 0.000000000000000000, 0.000000000000000000, 1.000000000000000000 ) ) ;
#313 = AXIS2_PLACEMENT_3D ( 'NONE', #136, #235, #85 ) ;
#314 = PRODUCT ( 'MgF2-MIRQWP-12.7-4000-M', 'MgF2-MIRQWP-12.7-4000-M', '', ( #243 ) ) ;
#315 = CC_DESIGN_APPROVAL ( #306, ( #35 ) ) ;
#316 = DATE_AND_TIME ( #110, #227 ) ;
#317 = PLANE ( 'NONE',  #38 ) ;
#318 = LINE ( 'NONE', #190, #232 ) ;
#319 = CARTESIAN_POINT ( 'NONE',  ( 3.000000000000000000, 0.000000000000000000, 12.69999999999999929 ) ) ;
#320 = VECTOR ( 'NONE', #87, 1000.000000000000000 ) ;
#321 = LINE ( 'NONE', #142, #287 ) ;
#322 = DIRECTION ( 'NONE',  ( 0.000000000000000000, 0.000000000000000000, -1.000000000000000000 ) ) ;
#323 = ORIENTED_EDGE ( 'NONE', *, *, #15, .T. ) ;
#324 = LOCAL_TIME ( 9, 29, 17.00000000000000000, #197 ) ;
#325 = PLANE ( 'NONE',  #108 ) ;
#326 = EDGE_LOOP ( 'NONE', ( #233, #16, #333, #51 ) ) ;
#327 = ADVANCED_FACE ( 'NONE', ( #124, #296 ), #325, .F. ) ;
#328 = DIRECTION ( 'NONE',  ( 1.000000000000000000, 0.000000000000000000, 0.000000000000000000 ) ) ;
#329 = CIRCLE ( 'NONE', #305, 6.349999999999999645 ) ;
#330 = APPROVAL_PERSON_ORGANIZATION ( #153, #306, #149 ) ;
#331 = ORIENTED_EDGE ( 'NONE', *, *, #173, .F. ) ;
#332 = DIRECTION ( 'NONE',  ( -1.000000000000000000, -0.000000000000000000, -0.000000000000000000 ) ) ;
#333 = ORIENTED_EDGE ( 'NONE', *, *, #158, .T. ) ;
#334 = CARTESIAN_POINT ( 'NONE',  ( -1.614212418857619014, 7.776507174585692163E-16, -6.349999999999999645 ) ) ;
#335 = CARTESIAN_POINT ( 'NONE',  ( -3.000000000000000000, 0.000000000000000000, 0.000000000000000000 ) ) ;
ENDSEC;
END-ISO-10303-21;
